NOTHİNG ELSE MATTERS(Metallica)

Metallica – Nothing Else Matters

e---------0-----------0-----------0-----------0-----
B-------0---0-------0---0-------0---0-------0---0---
G-----0-------0---0-------0---0-------0---0---------
D---------------------------------------------------
A---------------------------------------------------
E---0-----------0-----------0-----------0-----------
e---7-7-----7p0---------7-8-7h8p7p5-7p5/3/2-------2p0------
B-------0-------0-------0-0---------0-------5---5-----5----
G---------0-------0---0-----------------------5---------5--
D----------------------------------------------------------
A-------------------------------------------0--------------
E-----0-------------0--------------------------------------
e---------0----------------3p0-----------------0h5p0-----------------12----------
B-------5----5--5--5----5-----5-------7----7---------7p0-0h5-------12----(12)----
G-----5------5--5--5--5---5-----5-----7--7---7------------------12-----------(12)
D--------------------------------------------------------------------------------
A---0--------0--2--3------------------5------------------------------------------
E--------------------------------------------------------------0------------------
e---------0-----------0-----------0----------------
B-------0---0-------0---0-------0---0--------------
G-----0-------0---0-------0---0-------0------------
D--------------------------------------------------
A--------------------------------------------------
E---0-----------0-----------0-----------0(heavy)---
e---------7-------------------------7------------------
B---------8-------7------5----------8-------7------5---
G-------9---------7------5--------9---------7------5---
D-----9---------7------5--------9---------7------5-----
A---7---------5------3--------7---------5------3-------
E---------------------------0--------------------------
EmEm
e-----------7----5--------3--------3--------2--------------0--------0---
B-----------8------7--------5--------3--------4----------0---0------0---
G---------9----------7--------5--------4--------2-(p0)-0-------0----0---
D-------9-----------------------------------------------------------2---
A-----7--------5--------3-----------------2-------------------------2---
E---0----------------------------3-------------------0-----------0--0---


Bu içerik 3.065 kişi tarafından görüntülendi.

BENZERŞARKILAR

Bir cevap yazın

E-posta hesabınız yayımlanmayacak. Gerekli alanlar * ile işaretlenmişlerdir



POPÜLERŞARKILAR

Akor Cetveli

A major


ÖNERİLENLİSTELER