NOTHİNG ELSE MATTERS SOLO(Metallica)


|-----------------------------------------------------------------|
|--15-------------------------------------------------------------| 
|--14b---14b12~---14h12-----11h12h11----11-------------12-14-12---|
|------------------------------------14----12-14~-----------------| 
|-----------------------------------------------------------------| 
|-----------------------------------------------------------------|

--------12-------12-----------------------------------------------|
-----12-------12----15-12----12---------------14----14-13~12------|
--14b------14b------------15----15-14---12----14----14-13~12~-----|
-------------------------------------------14---------------------|
------------------------------------------------------------------|
------------------------------------------------------------------|

----------------------------------------|
--------14----14-13~12------------------|
--12----14----14-13~12~-----------------|
-----14---------------------------------|
----------------------------------------|
----------------------------------------|

---15s--14-------15--14---15-17s---17----15---14h15h14----15--14-----|
------------12-----------------------------------------12--------12~-|
---------------------------------------------------------------------|
---------------------------------------------------------------------|
---------------------------------------------------------------------|
---------------------------------------------------------------------|


Bu içerik 1.376 kişi tarafından görüntülendi.

BENZERŞARKILAR

Bir Cevap Yazın

E-posta hesabınız yayımlanmayacak. Gerekli alanlar * ile işaretlenmişlerdir



POPÜLERŞARKILAR

Akor Cetveli

A major


ÖNERİLENLİSTELER