SENİ KENDİME SAKLADIM(Duman)

Duman – Seni Kendime Sakladım Tab


e-----------------------------------1-0-------------
B-----5h6-6-6-6-5-5-6-8/9-----1-1-2-----2-1---------
G--/6-----------------------------------------------
D---------------------------------------------------
A---------------------------------------------------
E---------------------------------------------------

e--------------------------------------------------- 
B--------------------------------------------------- 
G--1-1-1--3--1-0-1----------0-1-1-0-0---------------
D-------------------------3------------3------------
A---------------------------------------------------
E---------------------------------------------------


Bu içerik 3.878 kişi tarafından görüntülendi.

BENZERŞARKILAR

Bir Cevap Yazın

E-posta hesabınız yayımlanmayacak. Gerekli alanlar * ile işaretlenmişlerdir



POPÜLERŞARKILAR

Akor Cetveli

A major


ÖNERİLENLİSTELER