BU AKŞAM(Duman)


E)---2-0---0-------0----------2--0----0-------0--0 
B)-0-----3---2-h-3---2--0--0-------3----2-h-3----- 
G)------------------------------------------------ 
D)------------------------------------------------ 
A)------------------------------------------------ 
E)------------------------------------------------

E)-2--0---0-------0--------------------------------
B)------3---2-h-3---2--0------3--2--0--3--2--0--0--
G)-------------------------------------------------
D)-------------------------------------------------
A)-------------------------------------------------
E)-------------------------------------------------
İntro:
Bm G A Em –  Bm G A A

Bm G A Em – G A Bm Bm


Bm        G         A       Em
Kendime geldim geleli dostlar
Bm      G      A
Olamam kimseye düşman
Bm         G         A           Em
Hiç şüphem yok kefenim sağlam
G     A       Bm

İçerim ben bu akşam


Bm G A Em – Bm G A A

Bm G A Em – G A Bm Bm


Bm      G          A        Em
Sesleri duydum duyalı dostlar
Bm  G        A
Yola çıktım yeni baştan
Bm    G       A          Em
Acelem yok hedefim sağlam
G     A       Bm
İçerim ben bu akşam
G    A       Bm
İçerim ben bu akşam
G                      A
İçerim beeeeeeeen
Bm       G      Em
Ben burda bu akşam
F#       Bm       G      Em
Ben burda bu akşam
F#         Bm      G        Em
Ben burda bu akşam
F#       G          A
Ben burda bu akşaaaaaam, içerim ben

Bm G A Em
Bm G A A
Bm G A Em
G A Bm Bm

Bm G A Em
Sizleri gördüm göreli dostlar
Bm        G        A
Hemen hergün bana bayram
Bm         G      A        Em
Yarınım yok sevenim sağlam
G     A      Bm
İçerim ben bu akşam
G     A        Bm
İçerim ben bu akşam
G     A       Bm   
İçerim ben

Ritim: A-AY



Bu içerik 2.456 kişi tarafından görüntülendi.

BENZERŞARKILAR

“Bu Akşam” için 5 cevap

  1. veyseleti47 dedi ki:

    Onur Hocam, hayırlı uğurlu olsun siteniz. Hocam diyorum çünkü sadece yüz yüze olan öğrencilerinize değil sizi internetten (youtube , instagram, vs vs . ) izleyen herkese ulaşıyorsunuz ve her ulaştığınız kişi sizden bişeyler öğreniyordur diye düşünüyorum.( Şahsi fikrimdir.) bu yüzden bana göre siz büyük bir öğretmensiniz. Kutluyor ve tebrik ediyorum. Başarılarınızın devamını dilerim. İyi çalışmalar 🙂

  2. veyseleti47 dedi ki:

    Parçayı da tabiki çok beğendim ayrıca 🙂

  3. Ahmet celik dedi ki:

    PDF olarak indirebiliyo muyuz?

Bir cevap yazın

E-posta hesabınız yayımlanmayacak. Gerekli alanlar * ile işaretlenmişlerdir



POPÜLERŞARKILAR

Akor Cetveli

A major


ÖNERİLENLİSTELER